Trouve Ta Musique: Retour à la page d'accueil  
 
Login
Identifiant
Mot de passe
    
 

Nos Fans
Qui est en ligne ?
37 internautes en ligne

36 visiteurs
1 membres

viaterra, plus...



Demander

Une musique en tête ?
Posez votre question
à la communauté


Répondre

Aidez la communauté
en retrouvant leurs musiques
et gagnez des points

      

Découvrir

Naviguez parmi les titres
identifiés par la communauté
par date

       

Promouvoir

Faites découvrir
votre musique
aux internautes

      

Accueil  >  Variété internationale  > lors d'émissions comme "Faits divers...

 
Résolue

chanson sinistre que tout le monde a déjà... : lors d'émissions comme "Faits...

      

Bonjour.

J'essaie depuis plusieurs jours de retrouver le titre d'une chanson que j'ai entendu plusieurs fois dans diverses émissions. Je suis sûr que la majorité des gens connaissent la mélodie.

Seulement voilà : je n'ai pu entendre que l'intro ; c'est juste une guitare assez lugubre qui joue ce riff en boucle :

|--------------------------------------------------------------|
|--------------------------------------------------------------|
|--------------------------------------------------------------|
|---2-2-----2-2-----0-2-0--0-2-0---2-2-----2-2-----0-2-0-----|
|-0-------0-------1-------1-------0-------0-------3-------3-2-|
|--------------------------------------------------------------|

Excusez-moi pour la qualité de ma tablature faite maison, j'ai fait ce que j'ai pu .

J'ignore si c'est un homme ou une femme qui chante, en fait je sais même pas si il y a une voix.

Je pense que c'est une chanson de rock, peut-être Nu-Metal, mais vu que je ne connais que l'intro, c'est peut-être un peu plus pop. En tout cas le début est plutôt calme, mais donne un peu la chair de poule...

Si jamais vous connaissez le titre, le groupe/l'artiste, ou même juste un film où vous avez entendu cette foutue chanson, allez-y.

Merci


Indices fournis:

Télévision, lors d'émissions comme "Faits divers mag" - Je ne sais pas



Vocale: homme
Langue des paroles: anglais
Mots/phrase des paroles: Je ne sais pas
3 mots-clés récapitulatifs: chanson sinistre que tout le monde a déjà entendu
Question à 10 points
Vue 602 fois
Posée le 05/09/2009 à 23:19

Partager cette question sur FacebookPartager cette question sur Twitter
     

 
 
 
 
 
 
Commentaire:

chanson sinistre que tout... : lors d'émissions comme...

Je rectifie la tablature :
|--------------------------------------------------------------|
|--------------------------------------------------------------|
|--------------------------------------------------------------|
|---2-2-----2-2-----0-2-0--0-2-0---2-2-----2-2-----0-2-0---|
|-0-------0--------1--------1--------0-------0--------3--------3-2-|
|--------------------------------------------------------------|
 
5/9/2009 23:24
 
Visiteur
N'étant pas Musicien, ta tablature ne me dit rien.
Donc je tente ceci !
 
5/9/2009 23:32
 
Visiteur
a proposé le titre
AC/DC - Hell's Bells
 ,
5/9/2009 23:33
 
Non, c'est pas ACDC, ça c'est sûr. La guitare est pas aussi saturée... Mais c'est vrai que ça rappelle un peu Hell's Bells...
 
5/9/2009 23:38
 
Visiteur
Tu pourrais le fredonner ?
 
5/9/2009 23:45
 
J'ai pas de micro...
 
5/9/2009 23:53
 
Visiteur
Bon, alors donnes moi des morceaux approchants.
 
5/9/2009 23:55
 
Ca fait penser un peu à l'intro de piano d'In The End de Linkin Park

http://www.dailymotion.com/relevance/search/in+the+end+linkin+park/video/xjlic_in-the-end-linkin-park_music

J'ai même pensé que c'était eux à un moment.
 
6/9/2009 12:04
 
 ,
6/9/2009 12:23
 
C'est bon, on m'a donné le titre sur un forum. Merci bcp en tout cas!
 
6/9/2009 12:24
 

 
 
 

 
précédente - suivante


Accueil  >  Variété internationale  > lors d'émissions comme "Faits divers...